CHORDS N' TABS

Written All Over Your Face
Buy Now

Transcribed by:
Emerson Klimach dos Santos - Porto Alegre-RS-BRASIL


    F#m  E   A A  B           D  Db B  E
|-----------------------|   |---------------|
|-----------------------|   |---------------|
|------------2-2--4-----|3X |--7--6--4--9---|
|----4---2---2-2--4-----|   |--7--6--4--9---|
|----4---2---0-0--2-----|   |--5--4--2--7---|
|--0^2---0--------------|   |---------------|

|-----------------------|   |----------------------------|--------|
|-----------------------|   |----------------------------|--------|
|--------9^--9-7-6------|3X |---6-7--6------6-7-9--------|--------|
|-------------------7-9-|   |-9-----------9---------7-6--|--------|
|--7-9------------------|   |----------------------------|--9-7-9-|
|-----------------------|   |----------------------------|--------|

F#m7               Bm7
Seems you've been gone too long
F#m7                 Bm7
Something is going on
F#m7                     Bm7
When you walked out the door
         D         A/Db     Bm   A
It was written all over your face

F#m7               Bm7
You know I couldn't see
F#m7               Bm7
It's gone from my memory
F#m7               Bm7
There's no use in telling me
         D         A/Db     Bm   E
It was written all over your face

Intro

F#m7               Bm7
I don't feel like holding on
F#m7               Bm7
Something inside is gone
F#m7               Bm7
You're not that good for me
             D         A/Db     Bm   A
And it was written all over your face

F#m7               Bm7
Strange dreams are haunting me
F#m7                Bm7
You treat me like a refugee
F#m7                        Bm7
That ain't the way that it should be
             D         A/Db     Bm   E
And it was written all over your face

A                   Bm7            D      C#7
And I don't want to think about tomorrow
F#m E                D    C#7      Bm7    C#7
And I don't want to live in yesterday
             A                      Bm7
Now there's something wrong, what's going on
     D                      C#7
I believe in faith and it keeps me strong
F#m7         E         D           A/Db (=x4222x)  Bm7            C#7
I won't be turning my head no more         It is written, it is written


Intro


F#m7            Bm7
So many years ago
F#m7                  Bm7
Now I've gotta let you go
F#m7                Bm7
Same as it's always been
           D         A/Db     Bm   A
And it's written all over your face

F#m7            Bm7
Thanks for the charity
F#m7            Bm7
Thanks cuz you lied to me
F#m7            Bm7
Thanks for the jealousy
         D         A/Db     Bm   E
It was written all over your face

        D                          A
Oh I, I'm gonna break that old tradition
        Bm7           F#m7
You'd better find humility
        Bm7           F#m7
But you are too blind to see
       D                          A
Oh I, you know I found a new condition
      Bm7           F#m7
Cuz I want my life to be
         Bm7           F#m7
To bring love and harmony
         Bm7             F#m7
Now it's time to set you free
   D      E             
Right now

60^62 62 (line bass repeat)

Go Back


SOLO:  
Bm  C#m  F#m  B
C#m  D  E  Ebm5M (= X69876)
C#m  D  E  Ebm5M  A  G
Intro

A    G
A    G
A    G