CHORDS N' TABS

Can't Stop The Flood
Buy Now

Transcribed by:
Emerson Klimach dos Santos - Porto Alegre-RS-BRASIL

Riff 1
 e|----------------------|
 B|----------------------|
 G|----------------------|
 D|--7-------------------|
 A|--5----5-3------------|
?D|----0--5-3---0-0-0----|

Riff 2
 e|------------------------------------------|     e|-------------------|
 B|------------------------------------------|     B|-------------------|
 G|------------------------------------------| 3x  G|-------------------|
 D|------------------------------------------|     D|-------------------|
 A|------------------------------------------|     A|---12----7----5----|
?D|--12-0-2-3---5-78--7-8-9-10--9-10-11-12--|    ?D|---12----7----5----|


(Riff 1)
Well my mind is free again
And my soul is on the mend
Won't somebody hear my plea?
There is a storm inside of me

(Riff 1)
Turn back the pages
There lies my fate
My intuition I hesitate
The storm it rages
Sky burnin' black
Hold back the river
No turnin' back

(Riff 2)
   I got my freak flag flyin' again
   I can feel the pressure begin
   Can you see I'm misunderstood?
   Because you can't stop the flood

(Riff 1)
Live on the outside
Walk throughout he pain
You know I can't hide 
From where I came
Ain't nobody gonna understand
You're gonna find me
In the promised land

Go Back

 e|----------------------------------|-------------------------------------|
 B|-------------------------------6--|-------------------------------------|
 G|--5^7--7-7-7-7-5---------5--------|--5^7--7-7-7-7-5---------5-----------|
 D|------------------5-6-7-----7-----|------------------5-6-7-----7--5-3--|
 A|----------------------------------|-------------------------------------|
?D|----------------------------------|-------------------------------------|

 e|----------------------------------|----------------------------------------------|
 B|-------------------------------6--|--13^15--15-15-15-15-13-----------13----------|
 G|--5^7--7-7-7-7-5---------5--------|-------------------------12-13-14----14-12-10-|
 D|------------------5-6-7-----7-----|----------------------------------------------|
 A|----------------------------------|----------------------------------------------|
?D|----------------------------------|----------------------------------------------|